ISO-10303-21;
HEADER;
FILE_DESCRIPTION (( 'STEP AP214' ),
    '1' );
FILE_NAME ('Brass tube.STEP',
    '2021-06-23T14:32:40',
    ( '' ),
    ( '' ),
    'SwSTEP 2.0',
    'SolidWorks 2021',
    '' );
FILE_SCHEMA (( 'AUTOMOTIVE_DESIGN' ));
ENDSEC;

DATA;
#1 = PLANE ( 'NONE',  #126 ) ;
#2 = CARTESIAN_POINT ( 'NONE',  ( 1.779999999999998694, 1.908475490988073749E-15, -0.09375000000000055511 ) ) ;
#3 = EDGE_CURVE ( 'NONE', #198, #203, #30, .T. ) ;
#4 = PLANE ( 'NONE',  #39 ) ;
#5 = DIRECTION ( 'NONE',  ( 1.000000000000000000, 1.110223024625157526E-15, 4.163336342344340971E-16 ) ) ;
#6 = CIRCLE ( 'NONE', #95, 0.09375000000000004163 ) ;
#7 = SURFACE_SIDE_STYLE ('',( #86 ) ) ;
#8 = LENGTH_MEASURE_WITH_UNIT ( LENGTH_MEASURE( 0.02539999999999999897 ), #87 );
#9 = PRODUCT_DEFINITION_CONTEXT ( 'detailed design', #88, 'design' ) ;
#10 = AXIS2_PLACEMENT_3D ( 'NONE', #162, #52, #181 ) ;
#11 = EDGE_CURVE ( 'NONE', #138, #198, #114, .T. ) ;
#12 = EDGE_LOOP ( 'NONE', ( #202, #157 ) ) ;
#13 = EDGE_CURVE ( 'NONE', #138, #18, #28, .T. ) ;
#14 = ORIENTED_EDGE ( 'NONE', *, *, #3, .F. ) ;
#15 = UNCERTAINTY_MEASURE_WITH_UNIT (LENGTH_MEASURE( 1.000000000000000082E-05 ), #37, 'distance_accuracy_value', 'NONE');
#16 = ORIENTED_EDGE ( 'NONE', *, *, #3, .T. ) ;
#17 =( CONVERSION_BASED_UNIT ( 'INCH', #192 ) LENGTH_UNIT ( ) NAMED_UNIT ( #219 ) );
#18 = VERTEX_POINT ( 'NONE', #2 ) ;
#19 = DIRECTION ( 'NONE',  ( -1.000000000000000000, -6.106226635438366889E-16, -4.440892098500630106E-16 ) ) ;
#20 = PRODUCT ( 'Brass tube', 'Brass tube', '', ( #141 ) ) ;
#21 = FILL_AREA_STYLE ('',( #207 ) ) ;
#22 = CARTESIAN_POINT ( 'NONE',  ( 1.779999999999998694, 2.458663194297837094E-15, -5.463695987328526437E-16 ) ) ;
#23 = DIRECTION ( 'NONE',  ( 0.000000000000000000, -1.942890293094024439E-16, -1.000000000000000000 ) ) ;
#24 = PRESENTATION_LAYER_ASSIGNMENT (  '', '', ( #161 ) ) ;
#25 = EDGE_LOOP ( 'NONE', ( #109, #59, #69, #210 ) ) ;
#26 = ORIENTED_EDGE ( 'NONE', *, *, #193, .F. ) ;
#27 = SURFACE_STYLE_USAGE ( .BOTH. , #7 ) ;
#28 = CIRCLE ( 'NONE', #185, 0.09375000000000004163 ) ;
#29 = VECTOR ( 'NONE', #19, 39.37007874015748143 ) ;
#30 = CIRCLE ( 'NONE', #57, 0.09375000000000004163 ) ;
#31 = ORIENTED_EDGE ( 'NONE', *, *, #72, .F. ) ;
#32 = DIRECTION ( 'NONE',  ( 0.000000000000000000, -1.942890293094016550E-16, -1.000000000000000000 ) ) ;
#33 = DIRECTION ( 'NONE',  ( 1.000000000000000000, 1.110223024625157526E-15, 4.163336342344340971E-16 ) ) ;
#34 = CARTESIAN_POINT ( 'NONE',  ( 1.779999999999998694, 2.476877790795593568E-15, 0.09374999999999950040 ) ) ;
#35 = EDGE_CURVE ( 'NONE', #208, #73, #144, .T. ) ;
#36 = FACE_OUTER_BOUND ( 'NONE', #191, .T. ) ;
#37 =( CONVERSION_BASED_UNIT ( 'INCH', #8 ) LENGTH_UNIT ( ) NAMED_UNIT ( #124 ) );
#38 = FACE_OUTER_BOUND ( 'NONE', #25, .T. ) ;
#39 = AXIS2_PLACEMENT_3D ( 'NONE', #213, #96, #53 ) ;
#40 = EDGE_LOOP ( 'NONE', ( #129, #125 ) ) ;
#41 = MECHANICAL_DESIGN_GEOMETRIC_PRESENTATION_REPRESENTATION (  '', ( #161 ), #66 ) ;
#42 = CYLINDRICAL_SURFACE ( 'NONE', #58, 0.09375000000000004163 ) ;
#43 = ADVANCED_FACE ( 'NONE', ( #36, #82 ), #4, .F. ) ;
#44 = FACE_OUTER_BOUND ( 'NONE', #49, .T. ) ;
#45 = DIRECTION ( 'NONE',  ( -1.000000000000000000, -6.106226635438366889E-16, -4.440892098500630106E-16 ) ) ;
#46 = DIRECTION ( 'NONE',  ( -1.000000000000000000, -6.106226635438366889E-16, -4.440892098500630106E-16 ) ) ;
#47 = ORIENTED_EDGE ( 'NONE', *, *, #187, .F. ) ;
#48 = CARTESIAN_POINT ( 'NONE',  ( 1.779999999999998694, 2.458663194297837094E-15, -5.463695987328526437E-16 ) ) ;
#49 = EDGE_LOOP ( 'NONE', ( #47, #168, #159, #183 ) ) ;
#50 =( LENGTH_UNIT ( ) NAMED_UNIT ( * ) SI_UNIT ( $, .METRE. ) );
#51 = LINE ( 'NONE', #104, #29 ) ;
#52 = DIRECTION ( 'NONE',  ( 0.000000000000000000, 0.000000000000000000, 1.000000000000000000 ) ) ;
#53 = DIRECTION ( 'NONE',  ( -4.163336342344335547E-16, -1.942890293094022960E-16, -1.000000000000000000 ) ) ;
#54 = STYLED_ITEM ( 'NONE', ( #154 ), #182 ) ;
#55 = DIRECTION ( 'NONE',  ( 0.000000000000000000, 1.942890293094024439E-16, 1.000000000000000000 ) ) ;
#56 = EDGE_CURVE ( 'NONE', #189, #148, #217, .T. ) ;
#57 = AXIS2_PLACEMENT_3D ( 'NONE', #177, #98, #117 ) ;
#58 = AXIS2_PLACEMENT_3D ( 'NONE', #48, #60, #131 ) ;
#59 = ORIENTED_EDGE ( 'NONE', *, *, #187, .T. ) ;
#60 = DIRECTION ( 'NONE',  ( -1.000000000000000000, -6.106226635438366889E-16, -4.440892098500630106E-16 ) ) ;
#61 = LINE ( 'NONE', #120, #67 ) ;
#62 =( NAMED_UNIT ( * ) PLANE_ANGLE_UNIT ( ) SI_UNIT ( $, .RADIAN. ) );
#63 = ORIENTED_EDGE ( 'NONE', *, *, #72, .T. ) ;
#64 =( NAMED_UNIT ( * ) SI_UNIT ( $, .STERADIAN. ) SOLID_ANGLE_UNIT ( ) );
#65 = CARTESIAN_POINT ( 'NONE',  ( 1.779999999999998694, 2.458663194297837094E-15, -5.463695987328526437E-16 ) ) ;
#66 =( GEOMETRIC_REPRESENTATION_CONTEXT ( 3 ) GLOBAL_UNCERTAINTY_ASSIGNED_CONTEXT ( ( #15 ) ) GLOBAL_UNIT_ASSIGNED_CONTEXT ( ( #37, #105, #158 ) ) REPRESENTATION_CONTEXT ( 'NONE', 'WORKASPACE' ) );
#67 = VECTOR ( 'NONE', #156, 39.37007874015748143 ) ;
#68 = DIRECTION ( 'NONE',  ( 1.000000000000000000, 1.110223024625157329E-15, -4.163336342344337520E-16 ) ) ;
#69 = ORIENTED_EDGE ( 'NONE', *, *, #56, .F. ) ;
#70 = FILL_AREA_STYLE_COLOUR ( '', #127 ) ;
#71 = CARTESIAN_POINT ( 'NONE',  ( 1.779999999999998694, 1.933423620241578306E-15, 0.09374999999999945877 ) ) ;
#72 = EDGE_CURVE ( 'NONE', #18, #203, #61, .T. ) ;
#73 = VERTEX_POINT ( 'NONE', #149 ) ;
#74 = ADVANCED_FACE ( 'NONE', ( #38 ), #174, .F. ) ;
#75 = MECHANICAL_DESIGN_GEOMETRIC_PRESENTATION_REPRESENTATION (  '', ( #54 ), #164 ) ;
#76 = VECTOR ( 'NONE', #206, 39.37007874015748143 ) ;
#77 = DIRECTION ( 'NONE',  ( 1.000000000000000000, 1.110223024625157526E-15, 4.163336342344340971E-16 ) ) ;
#78 = CARTESIAN_POINT ( 'NONE',  ( 0.000000000000000000, 0.000000000000000000, 0.000000000000000000 ) ) ;
#79 = CARTESIAN_POINT ( 'NONE',  ( 1.779999999999998694, 2.458663194297837094E-15, -5.463695987328526437E-16 ) ) ;
#80 = LENGTH_MEASURE_WITH_UNIT ( LENGTH_MEASURE( 0.02539999999999999897 ), #112 );
#81 = DIRECTION ( 'NONE',  ( 1.000000000000000000, 1.110223024625157526E-15, 4.163336342344340971E-16 ) ) ;
#82 = FACE_BOUND ( 'NONE', #135, .T. ) ;
#83 = DIRECTION ( 'NONE',  ( 1.000000000000000000, 1.110223024625157526E-15, 4.163336342344340971E-16 ) ) ;
#84 = FILL_AREA_STYLE ('',( #70 ) ) ;
#85 = CYLINDRICAL_SURFACE ( 'NONE', #90, 0.09375000000000004163 ) ;
#86 = SURFACE_STYLE_FILL_AREA ( #84 ) ;
#87 =( LENGTH_UNIT ( ) NAMED_UNIT ( * ) SI_UNIT ( $, .METRE. ) );
#88 = APPLICATION_CONTEXT ( 'automotive_design' ) ;
#89 = UNCERTAINTY_MEASURE_WITH_UNIT (LENGTH_MEASURE( 1.000000000000000082E-05 ), #188, 'distance_accuracy_value', 'NONE');
#90 = AXIS2_PLACEMENT_3D ( 'NONE', #79, #215, #55 ) ;
#91 = PRODUCT_RELATED_PRODUCT_CATEGORY ( 'part', '', ( #20 ) ) ;
#92 =( NAMED_UNIT ( * ) PLANE_ANGLE_UNIT ( ) SI_UNIT ( $, .RADIAN. ) );
#93 = SURFACE_SIDE_STYLE ('',( #170 ) ) ;
#94 = CARTESIAN_POINT ( 'NONE',  ( 1.779999999999998694, 2.458663194297837094E-15, -5.463695987328526437E-16 ) ) ;
#95 = AXIS2_PLACEMENT_3D ( 'NONE', #136, #77, #205 ) ;
#96 = DIRECTION ( 'NONE',  ( 1.000000000000000000, 1.110223024625157329E-15, -4.163336342344337520E-16 ) ) ;
#97 = LINE ( 'NONE', #221, #204 ) ;
#98 = DIRECTION ( 'NONE',  ( 1.000000000000000000, 1.110223024625157526E-15, 4.163336342344340971E-16 ) ) ;
#99 =( NAMED_UNIT ( * ) SI_UNIT ( $, .STERADIAN. ) SOLID_ANGLE_UNIT ( ) );
#100 = FACE_OUTER_BOUND ( 'NONE', #12, .T. ) ;
#101 = AXIS2_PLACEMENT_3D ( 'NONE', #22, #81, #152 ) ;
#102 = AXIS2_PLACEMENT_3D ( 'NONE', #211, #46, #111 ) ;
#103 = EDGE_CURVE ( 'NONE', #208, #189, #51, .T. ) ;
#104 = CARTESIAN_POINT ( 'NONE',  ( 1.779999999999998694, 2.470611969600365202E-15, 0.06149999999999948563 ) ) ;
#105 =( NAMED_UNIT ( * ) PLANE_ANGLE_UNIT ( ) SI_UNIT ( $, .RADIAN. ) );
#106 = CLOSED_SHELL ( 'NONE', ( #74, #153, #123, #43, #130, #218 ) ) ;
#107 = ORIENTED_EDGE ( 'NONE', *, *, #56, .T. ) ;
#108 = PRODUCT_DEFINITION ( 'UNKNOWN', '', #171, #9 ) ;
#109 = ORIENTED_EDGE ( 'NONE', *, *, #35, .T. ) ;
#110 = COLOUR_RGB ( '',0.6470588235294117974, 0.5176470588235293491, 0.000000000000000000 ) ;
#111 = DIRECTION ( 'NONE',  ( 0.000000000000000000, 1.942890293094016550E-16, 1.000000000000000000 ) ) ;
#112 =( LENGTH_UNIT ( ) NAMED_UNIT ( * ) SI_UNIT ( $, .METRE. ) );
#113 = DIRECTION ( 'NONE',  ( 0.000000000000000000, 1.942890293094016550E-16, 1.000000000000000000 ) ) ;
#114 = LINE ( 'NONE', #34, #76 ) ;
#115 = AXIS2_PLACEMENT_3D ( 'NONE', #121, #5, #139 ) ;
#116 = CYLINDRICAL_SURFACE ( 'NONE', #102, 0.06150000000000003381 ) ;
#117 = DIRECTION ( 'NONE',  ( -4.163336342344335054E-16, -1.942890293094023206E-16, -1.000000000000000000 ) ) ;
#118 = FACE_BOUND ( 'NONE', #40, .T. ) ;
#119 = EDGE_CURVE ( 'NONE', #73, #208, #155, .T. ) ;
#120 = CARTESIAN_POINT ( 'NONE',  ( 1.779999999999998694, 2.451929661542086645E-15, -0.09375000000000058287 ) ) ;
#121 = CARTESIAN_POINT ( 'NONE',  ( 0.000000000000000000, 0.000000000000000000, 0.000000000000000000 ) ) ;
#122 = AXIS2_PLACEMENT_3D ( 'NONE', #94, #45, #113 ) ;
#123 = ADVANCED_FACE ( 'NONE', ( #100, #118 ), #1, .T. ) ;
#124 = DIMENSIONAL_EXPONENTS ( 1.000000000000000000, 0.000000000000000000, 0.000000000000000000, 0.000000000000000000, 0.000000000000000000, 0.000000000000000000, 0.000000000000000000 ) ;
#125 = ORIENTED_EDGE ( 'NONE', *, *, #119, .F. ) ;
#126 = AXIS2_PLACEMENT_3D ( 'NONE', #65, #68, #137 ) ;
#127 = COLOUR_RGB ( '',0.6470588235294117974, 0.5176470588235293491, 0.000000000000000000 ) ;
#128 = SURFACE_STYLE_USAGE ( .BOTH. , #93 ) ;
#129 = ORIENTED_EDGE ( 'NONE', *, *, #35, .F. ) ;
#130 = ADVANCED_FACE ( 'NONE', ( #180 ), #85, .T. ) ;
#131 = DIRECTION ( 'NONE',  ( 0.000000000000000000, 1.942890293094024439E-16, 1.000000000000000000 ) ) ;
#132 = EDGE_LOOP ( 'NONE', ( #31, #143, #145, #16 ) ) ;
#133 = PRODUCT_DEFINITION_SHAPE ( 'NONE', 'NONE',  #108 ) ;
#134 = CARTESIAN_POINT ( 'NONE',  ( 1.779999999999998694, 1.927157799046348756E-15, 0.06149999999999945788 ) ) ;
#135 = EDGE_LOOP ( 'NONE', ( #107, #220 ) ) ;
#136 = CARTESIAN_POINT ( 'NONE',  ( 1.779999999999998694, 2.458663194297837094E-15, -5.463695987328526437E-16 ) ) ;
#137 = DIRECTION ( 'NONE',  ( -4.163336342344335547E-16, -1.942890293094022960E-16, -1.000000000000000000 ) ) ;
#138 = VERTEX_POINT ( 'NONE', #71 ) ;
#139 = DIRECTION ( 'NONE',  ( -4.163336342344335054E-16, -1.942890293094023206E-16, -1.000000000000000000 ) ) ;
#140 = APPLICATION_PROTOCOL_DEFINITION ( 'draft international standard', 'automotive_design', 1998, #150 ) ;
#141 = PRODUCT_CONTEXT ( 'NONE', #150, 'mechanical' ) ;
#142 = EDGE_CURVE ( 'NONE', #148, #189, #199, .T. ) ;
#143 = ORIENTED_EDGE ( 'NONE', *, *, #13, .F. ) ;
#144 = CIRCLE ( 'NONE', #209, 0.06150000000000003381 ) ;
#145 = ORIENTED_EDGE ( 'NONE', *, *, #11, .T. ) ;
#146 = DIMENSIONAL_EXPONENTS ( 1.000000000000000000, 0.000000000000000000, 0.000000000000000000, 0.000000000000000000, 0.000000000000000000, 0.000000000000000000, 0.000000000000000000 ) ;
#147 =( GEOMETRIC_REPRESENTATION_CONTEXT ( 3 ) GLOBAL_UNCERTAINTY_ASSIGNED_CONTEXT ( ( #201 ) ) GLOBAL_UNIT_ASSIGNED_CONTEXT ( ( #17, #62, #99 ) ) REPRESENTATION_CONTEXT ( 'NONE', 'WORKASPACE' ) );
#148 = VERTEX_POINT ( 'NONE', #151 ) ;
#149 = CARTESIAN_POINT ( 'NONE',  ( 1.779999999999998694, 1.910791826256051648E-15, -0.06150000000000055422 ) ) ;
#150 = APPLICATION_CONTEXT ( 'automotive_design' ) ;
#151 = CARTESIAN_POINT ( 'NONE',  ( 2.560451850541784491E-17, 1.910791826256040998E-15, -0.06150000000000000605 ) ) ;
#152 = DIRECTION ( 'NONE',  ( 0.000000000000000000, -1.942890293094016550E-16, -1.000000000000000000 ) ) ;
#153 = ADVANCED_FACE ( 'NONE', ( #195 ), #42, .T. ) ;
#154 = PRESENTATION_STYLE_ASSIGNMENT (( #128 ) ) ;
#155 = CIRCLE ( 'NONE', #101, 0.06150000000000003381 ) ;
#156 = DIRECTION ( 'NONE',  ( -1.000000000000000000, -6.106226635438366889E-16, -4.440892098500630106E-16 ) ) ;
#157 = ORIENTED_EDGE ( 'NONE', *, *, #193, .T. ) ;
#158 =( NAMED_UNIT ( * ) SI_UNIT ( $, .STERADIAN. ) SOLID_ANGLE_UNIT ( ) );
#159 = ORIENTED_EDGE ( 'NONE', *, *, #103, .T. ) ;
#160 = APPLICATION_PROTOCOL_DEFINITION ( 'draft international standard', 'automotive_design', 1998, #88 ) ;
#161 = STYLED_ITEM ( 'NONE', ( #163 ), #165 ) ;
#162 = CARTESIAN_POINT ( 'NONE',  ( 0.000000000000000000, 0.000000000000000000, 0.000000000000000000 ) ) ;
#163 = PRESENTATION_STYLE_ASSIGNMENT (( #27 ) ) ;
#164 =( GEOMETRIC_REPRESENTATION_CONTEXT ( 3 ) GLOBAL_UNCERTAINTY_ASSIGNED_CONTEXT ( ( #89 ) ) GLOBAL_UNIT_ASSIGNED_CONTEXT ( ( #188, #92, #64 ) ) REPRESENTATION_CONTEXT ( 'NONE', 'WORKASPACE' ) );
#165 = ADVANCED_BREP_SHAPE_REPRESENTATION ( 'Brass tube', ( #182, #10 ), #147 ) ;
#166 = EDGE_LOOP ( 'NONE', ( #26, #63, #186, #178 ) ) ;
#167 = AXIS2_PLACEMENT_3D ( 'NONE', #200, #223, #172 ) ;
#168 = ORIENTED_EDGE ( 'NONE', *, *, #119, .T. ) ;
#169 = DIRECTION ( 'NONE',  ( 1.000000000000000000, 1.110223024625157526E-15, 4.163336342344340971E-16 ) ) ;
#170 = SURFACE_STYLE_FILL_AREA ( #21 ) ;
#171 = PRODUCT_DEFINITION_FORMATION_WITH_SPECIFIED_SOURCE ( 'ANY', '', #20, .NOT_KNOWN. ) ;
#172 = DIRECTION ( 'NONE',  ( -4.163336342344335054E-16, -1.942890293094023206E-16, -1.000000000000000000 ) ) ;
#173 = CARTESIAN_POINT ( 'NONE',  ( 3.903127820947829521E-17, 1.908475490988065466E-15, -0.09375000000000001388 ) ) ;
#174 = CYLINDRICAL_SURFACE ( 'NONE', #122, 0.06150000000000003381 ) ;
#175 = EDGE_CURVE ( 'NONE', #203, #198, #216, .T. ) ;
#176 = DIRECTION ( 'NONE',  ( -4.163336342344335054E-16, -1.942890293094023206E-16, -1.000000000000000000 ) ) ;
#177 = CARTESIAN_POINT ( 'NONE',  ( 0.000000000000000000, 0.000000000000000000, 0.000000000000000000 ) ) ;
#178 = ORIENTED_EDGE ( 'NONE', *, *, #11, .F. ) ;
#179 = PRESENTATION_LAYER_ASSIGNMENT (  '', '', ( #54 ) ) ;
#180 = FACE_OUTER_BOUND ( 'NONE', #132, .T. ) ;
#181 = DIRECTION ( 'NONE',  ( 1.000000000000000000, 0.000000000000000000, 0.000000000000000000 ) ) ;
#182 = MANIFOLD_SOLID_BREP ( 'Boss-Extrude1', #106 ) ;
#183 = ORIENTED_EDGE ( 'NONE', *, *, #142, .F. ) ;
#184 = AXIS2_PLACEMENT_3D ( 'NONE', #78, #169, #176 ) ;
#185 = AXIS2_PLACEMENT_3D ( 'NONE', #212, #83, #23 ) ;
#186 = ORIENTED_EDGE ( 'NONE', *, *, #175, .T. ) ;
#187 = EDGE_CURVE ( 'NONE', #73, #148, #97, .T. ) ;
#188 =( CONVERSION_BASED_UNIT ( 'INCH', #80 ) LENGTH_UNIT ( ) NAMED_UNIT ( #146 ) );
#189 = VERTEX_POINT ( 'NONE', #222 ) ;
#190 = CARTESIAN_POINT ( 'NONE',  ( -3.903127820947782682E-17, 1.933423620241597238E-15, 0.09374999999999998612 ) ) ;
#191 = EDGE_LOOP ( 'NONE', ( #14, #194 ) ) ;
#192 = LENGTH_MEASURE_WITH_UNIT ( LENGTH_MEASURE( 0.02539999999999999897 ), #50 );
#193 = EDGE_CURVE ( 'NONE', #18, #138, #6, .T. ) ;
#194 = ORIENTED_EDGE ( 'NONE', *, *, #175, .F. ) ;
#195 = FACE_OUTER_BOUND ( 'NONE', #166, .T. ) ;
#196 = CARTESIAN_POINT ( 'NONE',  ( 1.779999999999998694, 2.458663194297837094E-15, -5.463695987328526437E-16 ) ) ;
#197 = DIRECTION ( 'NONE',  ( -1.000000000000000000, -6.106226635438366889E-16, -4.440892098500630106E-16 ) ) ;
#198 = VERTEX_POINT ( 'NONE', #190 ) ;
#199 = CIRCLE ( 'NONE', #115, 0.06150000000000003381 ) ;
#200 = CARTESIAN_POINT ( 'NONE',  ( 0.000000000000000000, 0.000000000000000000, 0.000000000000000000 ) ) ;
#201 = UNCERTAINTY_MEASURE_WITH_UNIT (LENGTH_MEASURE( 1.000000000000000082E-05 ), #17, 'distance_accuracy_value', 'NONE');
#202 = ORIENTED_EDGE ( 'NONE', *, *, #13, .T. ) ;
#203 = VERTEX_POINT ( 'NONE', #173 ) ;
#204 = VECTOR ( 'NONE', #197, 39.37007874015748143 ) ;
#205 = DIRECTION ( 'NONE',  ( 0.000000000000000000, -1.942890293094024439E-16, -1.000000000000000000 ) ) ;
#206 = DIRECTION ( 'NONE',  ( -1.000000000000000000, -6.106226635438366889E-16, -4.440892098500630106E-16 ) ) ;
#207 = FILL_AREA_STYLE_COLOUR ( '', #110 ) ;
#208 = VERTEX_POINT ( 'NONE', #134 ) ;
#209 = AXIS2_PLACEMENT_3D ( 'NONE', #196, #33, #32 ) ;
#210 = ORIENTED_EDGE ( 'NONE', *, *, #103, .F. ) ;
#211 = CARTESIAN_POINT ( 'NONE',  ( 1.779999999999998694, 2.458663194297837094E-15, -5.463695987328526437E-16 ) ) ;
#212 = CARTESIAN_POINT ( 'NONE',  ( 1.779999999999998694, 2.458663194297837094E-15, -5.463695987328526437E-16 ) ) ;
#213 = CARTESIAN_POINT ( 'NONE',  ( 0.000000000000000000, 0.000000000000000000, 0.000000000000000000 ) ) ;
#214 = SHAPE_DEFINITION_REPRESENTATION ( #133, #165 ) ;
#215 = DIRECTION ( 'NONE',  ( -1.000000000000000000, -6.106226635438366889E-16, -4.440892098500630106E-16 ) ) ;
#216 = CIRCLE ( 'NONE', #184, 0.09375000000000004163 ) ;
#217 = CIRCLE ( 'NONE', #167, 0.06150000000000003381 ) ;
#218 = ADVANCED_FACE ( 'NONE', ( #44 ), #116, .F. ) ;
#219 = DIMENSIONAL_EXPONENTS ( 1.000000000000000000, 0.000000000000000000, 0.000000000000000000, 0.000000000000000000, 0.000000000000000000, 0.000000000000000000, 0.000000000000000000 ) ;
#220 = ORIENTED_EDGE ( 'NONE', *, *, #142, .T. ) ;
#221 = CARTESIAN_POINT ( 'NONE',  ( 1.779999999999998694, 2.454245996810064938E-15, -0.06150000000000057504 ) ) ;
#222 = CARTESIAN_POINT ( 'NONE',  ( -2.560451850541737960E-17, 1.927157799046379128E-15, 0.06150000000000000605 ) ) ;
#223 = DIRECTION ( 'NONE',  ( 1.000000000000000000, 1.110223024625157526E-15, 4.163336342344340971E-16 ) ) ;
ENDSEC;
END-ISO-10303-21;
